Chord Endank soekamti - Satria Bergitar




Intro:


A5 D5 A5 D5

A5/B5/C#5/D5 C#5 B5 A5
A5/B5/C#5/D5 C#5 B5 A5 E5

e|------------------------------------------|
B|------------------------------------------|
G|------4-4-6-6-7-----7-6-----6-4-----4-----|
D|--7-7------------4---------------------7--| 2x
A|-------------------------7-------5--------|
E|------------------------------------------|

A5
Mau minta ini atau minta itu
E5
Asal murah abang belikan
E5
Mau beli baju dan juga sepatu
A5
Nanti abang cari diskonan

A5
Mau beli handphone atau blackberrian
D5
Nanti abang cari kreditan
F#5 E5
Yang penting you senang
D5 E5 A5 E5
Semua abang berikan


Reff:

A5 D5 E5 A5
Satria bergitar bercinta mimpi terhampar
F#5 B5
Pasti cerah masa depan
E5 A5
Tak hanya rayuan gombal

A5 D5 E5 A5 A5 G#5
Gitar dan melodi mereka menjadi saksi
F#5 B5
Semua kisah cinta ini
E5 A5
Kan jadi abadi


G#5 A5 G#5 A5
A5/B5/C#5/D5 C#5 B5 A5
A5/B5/C#5/D5 C#5 B5 A5 E5

e|--------------------------------------------|
B|--------------------------------------------|
G|--11--9-------11--9-------11--9------11--9--|
D|----------6-----------7-----------6---------|
A|---9--7--------9--7--------9--7-------9--7--|
E|----------4-----------5-----------4---------|

e|------------------------------------------|
B|------------------------------------------|
G|------4-4-6-6-7-----7-6-----6-4-----4-----|
D|--7-7------------4---------------------7--| 2x
A|-------------------------7-------5--------|
E|------------------------------------------|

A5
Mau minta ini atau minta itu
E5
Asal senang abang berikan
E5
Mau minta cium atau minta pijit
A5
Dengan senang abang berikan

A5
Mau beli rumah atau mobil mewah
D5
Nanti abang bilang bapakmu
F#5 E5
Yang penting you senang
D5 E5 A5 E5
Semua abang berikan


A5 D5 E5 A5
Satria bergitar bercinta mimpi terhampar
F#5 B5
Pasti cerah masa depan
E5 A5
Tak hanya rayuan gombal

A5 D5 E5 A5 A5 G#5
Gitar dan melodi mereka menjadi saksi
F#5 B5
Semua kisah cinta ini
E5 G#5 B5 E5
Menjadi... Menjadi... Menjadi... Oooh...

G#5 A5 G#5 A5
A5/B5/C#5/D5 C#5 B5 A5
A5/B5/C#5/D5 C#5 B5 A5

e|--------------------------------------------|
B|--------------------------------------------|
G|--11--9-------11--9-------11--9------11--9--|
D|----------6-----------7-----------6---------|
A|---9--7--------9--7--------9--7-------9--7--|
E|----------4-----------5-----------4---------|

e|------------------------------------------|
B|------------------------------------------|
G|------4-4-6-6-7-----7-6-----6-4-----4-----|
D|--7-7------------4---------------------7--|
A|-------------------------7-------5--------|
E|------------------------------------------|

e|------------------------------------------------|
B|------------------------------------------------|
G|------4-4-6-6-7-----7-6~--/9-7-6-4~--/7-6-4-----|
D|--7-7------------4--------------------------7~--|
A|------------------------------------------------|
E|------------------------------------------------|

Berikan Komentar Anda dibawah ini , Terimakasih telah Berkunjung disini
Follow me @donnymix
Subscribe to this Blog via Email :

0 komentar:

About Us

© 2009 - 2015 The Allnetwork. Designed by Matrix Allnetwork
Powered by Google.
back to top